Nynim.org

Tony Duckles on programming, photography, and general geekery

"Gravity" by John Mayer

"Gravity" by John Mayer
Transcribed by Tony Duckles
Last Modified: Nov 23, 2006
------

Tuning: Normal
http://www.youtube.com/watch?v=-urpryE_Ws0

Verses:

"Gravity is working against me..."

   (G)    (C)
e|----------------|
b|--3-----(8)-----|
g|--4------5-----.|
d|---------5-----.|
a|---------7------|
e|--3-------------|
   (T)

Chorus:

"I'll never know what makes this man..."

  (Am7)   (D7)  (A#6) (D#maj9) (D7)
e|--5---------------------------------|
b|--8------7------8------6------7-----|
g|--5------5------7------7------5-----|
d|--7------4------8------5------4-----|
a|---------5-------------6------5-----|
e|--5-------------6-------------------|

Comments