Nynim.org

Tony Duckles on programming, photography, and general geekery

"Lullaby" by the Gufs

"Lullaby" by The Gufs
Transcribed by Tony Duckles
Last Modified: Aug 20, 1998
------

This is off of Songs of Life.  Normal tuning, just lots of picking.

e:----------------------------0------------------------------------5-------|
B:---0--------1---------3-------3---------0--------1---------3-------3-----|
G:-----0--------0---------0-------0---------0--------0---------0-------0---|
D:-------0--------2---------4-------4---------0--------2---------4-------4-|
A:----------3--------/5--------------------------3--------/5---------------|
E:-3------------------------------------3----------------------------------|

e:----------------------------0---------------------------------2----------|
B:---0--------1---------3-------3---------0-----0-----0---3-------3--------|
G:-----0--------0---------0-------0---------0-----0---------2-------2------|
D:-------0--------2---------4-------4-------------------0-----0-------0----|
A:----------3--------/5----------------------------------------------------|
E:-3------------------------------------0-----2-----3----------------------|

(This is the main part of the song, played during the verses...)

CHORDS:

  C9   D   G F#/G Em/G D/G
:--0---2---3---3---3----3-------------
:--3---3---3---3---3----3-------------
:--0---2---0---0---0----2-------------
:--2---0---0---0---2----0-------------
:--3-------2---X---2------------------
:----------3---2---0------------------

Chorus:
              C9       D            G       B/G        Em/G
And I will sing    a new song every time he walks on by

Dm/G       C9          D             G      B/G      Em/G
I will sing        a new song when I see my father cry


Dm/G       C9                 D
I will sing to you ... a lullaby.

Outro:

Em/G                   C9              Em/G           C9
Lullaby...                      Lullaby...

Em/G                   C9        D
Lullaby...

G        C9    D            G        C9    D
La la la la la lie.         La la la la la lie

G        C9    D            Em F#/G G  D
La la la la la lie lie lie.

G        C9    D            G        C9    D
La la la la la lie.         La la la la la lie

G        C9    D            Em F#/G G  D
La la la la la lie lie lie.

:-------------------0------------2-------------3-||
:---------------1-----1---------3-------------3--||
:-----------------0-----0------2-------------0---||
:-------------------------2---0-------------0----||
:-------------3----------------------------2-----||
:-----------------------------------------3------||
And I will sing to you             a lullaby

Comments