Nynim.org

Tony Duckles on programming, photography, and general geekery

"Steadier Footing" by Death Cab for Cutie

"Steadier Footing" by Death Cab for Cutie
Transcribed by Tony Duckles
Last Modified: Jun 2, 2007
------

Tuning: Normal

Verses:

"It's gotten late and now I want to be alone..."

   (B)  (G#m)  (E)   (B)
e|---------------------------|
b|-------------(0)-----------|
g|--8-----4-----1-----8-----.|
d|--9-----4-----2-----9-----.|
a|---------------------------|
e|--7-----4-----0-----7------|

Pre-Chorus:

"And here I sit on the front porch..."

   (D#)  (E)  (C#m)  (Em)
e|---------------------------|
b|--4-----5-----5-----8------|
g|--3-----4-----6-----9-----.|
d|--------------------------.|
a|--6-----7-----4-----7------|
e|---------------------------|

Chorus:

"The people we have met in the last five years..."

e|----------------------------------------|
b|--------4-----------4-------------------|
g|--------------------------------6--4---.|
d|-----6-----------6-----------4---------.|
a|--4--------4--7--------7----------------|
e|--------------------------7-------------|

Comments